sábado, 3 de noviembre de 2012

American Idiot cover


Mi versión de American Idiot de Green Day, una canción muy fácil y divertida de tocar. =D

sábado, 20 de octubre de 2012

Improvisacion en Am


Después de mucho tiempo vuelvo a traeros una nueva improvisación, esta vez de una melodía que en especial me encanta. Espero que os guste y ya sabéis, el vídeo tiene una calidad pésima, en cuanto me haga con una mejor cámara subiré vídeos más a menudo =).

lunes, 6 de agosto de 2012

Knives and Pens - Black Veil Brides (cover)



Saludos! en esta ocasión os traigo una canción bastante molona, ya que hacía tiempo que no subía un cover completo.

Esta vez notareis la guitarra con bastante más distorsión de lo habitual ya que utilizo el amplificador Bugera 6262-212 sin ninguna pedalera. Como veis tiene una distorsión impresionante.

Espero que os guste y para cualquier opinión, crítica u petición de alguna canción o solo, no olvidéis comentar aquí abajito =).

lunes, 30 de julio de 2012

Improvisacion en Mi menor (Ballad in Em)


Hola chicos y chicas, espero que esteis genial, hoy traigo a mi canal una improvisación bastante aprovechable, la backing track es estilo Hendrix, como ya escucháis mola un montón. Así que poco más que decir, espero que os guste, y si, tiene algunos fallos que espero solucionar con la práctica y el tiempo. xD

Saludos =)

Old Snake - Metal Gear Solid 4 (cover y tabs)


Saludos chich@s, después de tanto solo, me apetecía hacer algo tranquilo, y aquí lo tenéis, una cover de la sublime canción Old Snake del también sublime Metal Gear Solid 4. Es una pasada escuchar este vídeo con muuuucho volumen, así que ya sabéis.
Enjoy =D

TABS (Afinación estándar E):

1]----13--------------------------16---13--13h14p13-----------------------
2]----------11------11--11------------------------------------------------------
3]------------------------------------------------------------------------------­----
4]------------------------------------------------------------------------------­----
5]-------------------------------------------------------------------------------­---
6]------------------------------------------------------------------------------­----

1]---14------11--11--14--11--11s13---------------------------------------
2]--------13-----------------------------------------------------------------------
3]------------------------------------------------------------------------------­----
4]------------------------------------------------------------------------------­----
5]-----------------------------------------------------------------------------­-----
6]------------------------------------------------------------------------------­---

1]----13--------------------------16---13--13h14p13-----------------------
2]----------11------11--11------------------------------------------------------
3]------------------------------------------------------------------------------­----
4]------------------------------------------------------------------------------­----
5]-------------------------------------------------------------------------------­---
6]------------------------------------------------------------------------------­----

1]---14------11--11--14--11--11s13---------------------------------------
2]--------13----------------------------------14p13p11-----------------------
3]------------------------------------------------------------------------------­----
4]------------------------------------------------------------------------------­----
5]------------------------------------------------------------------------------­----
6]-------------------------------------------------------------------------------­---